0

Drama band - babak pertama chords



Intro: F5  G5  A5  B5  C5(4x)

F  G  Am  G
Babak pertama bermula saat ku terlihat mu
F  G  Am  G
Waktu seakan terhenti terpinga mencari
F  G  Am  G
Rasa yang takkan terungkap tak pernah ku alami
F  G  Am
Cuba aku mengerti

(korus)
F  G
Teruja aku mengejar mu
Em  Am
Bermimpi memiliki mu
F  G  Em  Am
Tanpa perlu ku endahkan dunia, dunia
F  G
Biarkan ku terus berlari
Em  Am
Cuba merajai mimpi
F  G  Em  Am
Tiap bayang mu akan ku jejaki nanti

F  G  Em  Am
Oh…

F  G  Am  G
Takkan ku menemui lagi walau gelapnya hari
F  G  Am  G
Ku yakin akan temui semuanya di sini


0

Escape The Fate - Harder Than You Know Chords




Intro and Verse
|-------------------------------------------------------------| 
|-6----8----------------8--9/8---11-9/8------8---9-8---8------|
|---8-----8------10-----------10---------8----------8-8-8-10--|
|----8------8-------9-----9------------10------------9--------|
|-6-----6-----6--10---10---------11--------11---11------------|
|-------------------------------------------------------------|

verse
Eb                  G
You said this could only get better
Ab                       Abm
There's no rush cause we have each other
Eb                  G
You said this would last forever
Ab                            Abm
But now I doubt if I was your only lover

pre chorus
Eb          Bb
Are we just lost in time?
Cm               Bb         Ab
I wonder if your love's the same
Abm
Cause I'm not over you

chorus
Eb
Baby, don't talk to me
Ab                Abm
I'm trying to let go
Eb                G               Ab
Not loving you is harder than you know
      Abm
Cause girl you're driving me so crazy

Eb                        G                 Ab
How can I miss you if you never would stay?
                         Abm
If you need time I guess I'll go away (I'll go away)
Eb                         G                  Ab
Inside me now there's only heartache and pain
                            Abm
So where's the fire? You've become the rain

Eb          Bb
Are we just lost in time?
Cm               Bb         Ab
I wonder if your love's the same
Abm
Cause I'm not over you

Eb
Baby, don't talk to me
Ab                Abm
I'm trying to let go
Eb                G               Ab
Not loving you is harder than you know
Abm
Girl you're driving me so crazy
Eb               G
And if you don't want me than
Ab                   Abm
I guess I'll have to go (I guess I'll have to go)
Eb                G               Ab
Not loving you is harder than you know
(Yeah)
power
---------------------|
---------------------|
---------------------|
-6666666666666666----|
-6666666666666666----|
-4444444444444444----|
Eb
So I'll make the call
B
And I'll leave today
Bb
I'm gonna miss you cause I love you baby
Eb
And I'll make the call
B
I'm leaving today
Bb
And leaving always drives me crazy

Repeat chorus

0

Tres Empre - Great White Ocean Chord


video



Drop D

intro G

F G A (tukar2x)

0

Yui - Rolling Star Chord




Bm/D/A/G/Bm/D/A/G/G

Guitar 1
e|------0-0---------0-0----------0-0--------5-5--------|-----5-x-x-5-x-x-5--|
B|----3---3-------3---3--------2---2------3---3--------|-----3-x-x-3-x-x-3--|
G|--4-----------2------------2----------0--------------|-----0-x-x-0-x-x-0--|
D|-----------------------------------------------------|--------------------|
A|-----------------------------------------------------|--------------------|
E|-----------------------------------------------------|--------------------|
                                                              
Guitar 2
e|-----------------------------------------------------|--------------------|
B|-----------------------------------------------------|--------------------|
G|--4-4-4-4-----7-7-7-7--------------------------------|-----14x-x-14x-x-14-|
D|--4-4-4-4-----7-7-7-7------7-7-7-7-----5-5-5-5-------|-----12x-x-12x-x-12-|
A|--2-2-2-2-----5-5-5-5------7-7-7-7-----5-5-5-5-------|-----0-x-x-0-x-x-0--|
E|---------------------------5-5-5-5-----3-3-3-3-------|--------------------|
   

    D             G
Mou gaman baka shiterannai yo
 D               G
Iitai koto wa iwanakucha
 D              G
Kaerimichi yuugure no basutei
 D                  G
Ochikonda senaka ni bai bai bai

       F#m       G    F#m   G
Kimi no fighting pose misenakya! Oh! Oh!

 Bm                     D
Yume ni made mita you na sekai wa
 A                      G
Arasoi mo naku heiwa no nichi jyou
     Bm                   D
Demo gen jitsu wa hibi to rabu de
        A                 G
Tama ni kuyandari shiteru sonna rolling days

D          G
Koronjattatte iin ja nai no
  D                  G
Son toki wa waratte ageru
  D               G
Norikonda basu no oku kara
   D                G
Chiisaku hohoemi ga mieta

        F#mG      F#m     G
Kimi wo tayori ni shiteru yo Oh! Oh!

  Nm                     D
Yume ni made mita you na Sweet Love
   A                      G
Koibitotachi wa kakure ga wo sagasu no
     Bm              D
Demo genjitsu wa aenai hi ga
       A                 G
Tsuzukinagara mo shinjiteru no Lonely Days

Bm  D      A
 Oh  yeah,  yeah...
       G
Tsumazuitatte Way to go
Bm  D     A
 Yeah,  yeah,
G
Dorodoroke Rolling Star !!

Em      C          G
 Naru beku egao de itai keredo
Em        C                G
 Mamori nuku tame ni wa shikata nai deshou?
      Em         C
Kitto uso nante sou
       G       D
Imi wo motanai no ~All my loving
Bm7        A              Bm
 Sou ja nakya yatterannai

  Bm                     D
Yume ni made mita you na sekai wa
     A                  G
Arasoi mo naku heiwa na nichijou
     Bm                  D
Demo genjitsu wa hibi to rabu de
        A                 G
Tama ni kuyandari shiteru Sonna Rolling Days

Bm  D      A              G
 Oh  yeah,  yeah... Sou wakatterutte
Bm  D      A               G
 Oh  yeah,  yeah... Tsumazuitatte Way to go
Bm  D    A   G
 Yeah, yeah, doro ke Rolling Star

2

Classmates - Primadunia Chord






Intro D


Bm G D F#m
Bm G D


Verse:
D D
Andai kau masih di sini,
Em G

Terus berlari mencari erti,
D D

Semakin laju dunia,
Em G

Pastikan ada sesuatu yang kau cipta….

A Em F#m G A Bm

Chorus:

F#m G
Primadunia…
D

Kau idola,
Bm F#m G

Walaupun kau telah pergi selamanya,
Em Bm A        D D
Oh Primadunia….

Verse:


D D
Telah ku cuba segala,
Em G

Tidak berdaya mencari cita,
D D

Semakin laju dunia pastikan,
Em G

Ada sesuatu yang kau cipta….

A Em F#m G A Bm

Chorus:
F#m G
Primadunia…
D

Kau idola,
Bm F#m G

Walaupun kau telah pergi selamanya,
Em Bm A

Oh Primadunia….

Bm G D F#m (3x)

Bm G D
Primadunia 2x


Chorus:

F#m G
Primadunia…
D

Kau idola,
Bm F#m G

Walaupun kau telah pergi selamanya,
Em Bm A

Oh Primadunia….

Composer: Ucop Classmates
Lyric: Elham Classmates

0

Heart-A-Tack - Hilangkan Chord







INTRO 
C5 F5 A5 E5 F5 G5


Takkankuberhentimencuba 

Walaukaumulabertanya 
Am 
dimanakahtandakejayaan 
F                           G
lebihdarihanyasekadarimpian 


PRE CHORUS 

Am 
dankumula 
G
jatuh dah tewas 
F             G
tewassekalilagi 

CHORUS ; 

(Hilangkan) 

Hilangkansemua yang kauimpikan 

(Hilangkan) 
Am G 
Hilangkaninibukanlagimimpi 

F
Keranakuberserah

C
dankuberserah 
G

Semuanyapada
Am G
dirikuini 

VERSE ; 

mungkinkausalah 

memberikankupertunjuk 
Am 
yang kumasihperlukan 
F                G
dalamhidupkuini 

PRE CHORUS 
Am
dankumula 
G
jatuh dah tewas 
F          G
tewassekalilagi 

CHORUS ; 

(Hilangkan) 

Hilangkansemua yang kauimpikan 

(Hilangkan) 
Am G 
Hilangkaninibukanlagimimpi 

F
Keranakuberserah

C
dankuberserah 
G

Semuanyapada
Am G
dirikuini 



0

The Strokes - Undercover Of Darkness Chords




Intro:
 B B
E-----11^---------|
B--------11----11-|
G-4-4-------11----|
D-4-4-------------|
A-2-2-------------|
E-----------------| x2

C#m C#m
E-4-4--12-12-11-11---------4-4--7-9-7---7-|
B-5-5--------------14--12--5-5--------9---|
G-6-6----------------------6-6------------|
D-6-6----------------------6-6------------|
A-4-4----------------------4-4------------|
E-4-4----------------------4-4------------|

(Verse)
B
Slip back out of whack, at your best.
       Ebm
It's a nightmare,
      Abm          E
So I'm joining the army.
B
Know how folks back out, I'll still call.
          Ebm
Will you wait for me now?

(Bridge)
Abm
We've got the right to live, fight to use it,
E
Got everything but you can just choose it,
B
I won't just be a puppet on a string.

(Chorus)Repeat of Abm E B F#
Abm
Don'tttttttttt
E
goooooooooo
    B       F#
that wayyyyyyyyy

Abm
I'lllllllll
E
waittttttttt
    B       F#
for youuuuuuuuu

     Abm                    E
And I'm tired of all your friends
B                  F#
Listening at your door
Abm
And I want,
E      B           F#
What's better for you.

Abm      E
So long, my friend
B          F#
And adversary.
(No guitar)
Oh, but I'll wait for
  B B C#m C#m (intro riff)
you.

(Verse2)
B
Get dressed, jump out of bed you do it best.
    Ebm
Are you OK?
Abm
I've been all around this town
E                                               B
Everybody's been singing the same song for ten years.

(Chorus2)
Abm
I'lllllllll
E
waittttttttt
    B        F#
for youuuuuuuuu

Abm
Will youuuuuuu
E
waitttttttttt
   B      F#
for me tooo?

     Abm                   E
And they sacrifice their lives,
B                        F#
In the land of all closed eyes.
Abm                         E
I've been saying it a billion times,
      B           F#
And I'll say it again.

Abm         E
So long, my end
B            F#
The sorry embrace.


SOLO:
C#m Ebm C#m B B Abm B 
Abm C#m Ebm C#m B

    @

SOLO TABS:
---------------------------------------------------------

e|x-x-x-x----------------------------------------------------|
B|x-x-x-x------11-12---11-12-11-------11-12----11-12-11------|
G|x-x-x-x--9---------9----------9--11-------11----------11---|
D|x-x-x-x----------------------------------------------------|
A|x-x-x-x----------------------------------------------------|
E|x-x-x-x----------------------------------------------------|

e|------------------------------9--7--12--11s7-7---7-11-11/12|
B|----11-12---11-12-11-------11------------------8-----------|
G|9---------9----------9--8----------------------------------|
D|-----------------------------------------------------------|
A|-----------------------------------------------------------|
E|-----------------------------------------------------------|

e|11/-----------------------------------------------|
B|----7---7s12--12s16----------14-16--14------------|
G|--------------------13-15s16-----------16p15p13s11|
D|--------------------------------------------------|
A|--------------------------------------------------|
E|--------------------------------------------------|

e|--------------------------------------------------|
B|----11-12---11-12-11--------11-12----11-12-11-----|
G|9---------9----------9---11-------11----------11--|
D|--------------------------------------------------|
A|--------------------------------------------------|
E|--------------------------------------------------|

e|-----------------------------------------------------------|
B|----11-12---11-12-11---------------------------------------|
G|9---------9----------9--8-8--------6-6---------------------|
D|-----------------------------------------------------------|
A|-----------------------------------------------------------|
E|-----------------------------------------------------------|
Abm Don'tttttttttt E goooooooooo B F# that wayyyyyyyyy Abm I'lllllllll E waittttttttt B F# for youuuuuuuuu. Abm E And I'm tired of all your friends B F# Knockin down your door Abm E Get up in the morning B F# and give it your all Abm E So long, my friend B F# And adversary. (No guitar) Oh, but I'll wait for B B (first part of intro once) you.

0

Jason Derulo - It Girl Chords



Capo 4th

Intro: F C G Am x2

F                              C
I've been looking under rocks and breaking locks
G           Am
Just tryna find ya
F                      C
I've been like a manic insomniac
G       Am    
5 steps behind you
F                      C
Tell them other girls, they can hit the exit

Check please... 
G                         Am
Cause I finally found the girl of... my dreams
F                C
Much more than a Grammy award
G
That's how much you mean to me

F          
You could be my it girl
C
Baby you're the shhh girl
G                     Am           
Lovin' you could be a crime
F           
Crazy how we fit girl
C
This it girl
G             Am  
Give me 25 to life
F                     C
I just wanna rock all night long
G                            Am 
And put you in the middle of my spotlight
F            
You could be my it girl
C
You're my biggest hit girl
G        
Let me play it loud
G                           F     C
Let me play it loud like... oh oh oh oh
G
Let me play it loud
G                           F     C
Let me play it loud like... oh oh oh oh
G
Let me play it loud


(Chords the same as verse 1)
You can't help but turn them heads
Knockin' them dead
Dropping like flies around you
If I get your body close not letting go
Hoping you're about to
Tell them other guys they can lose your number
You're done! 
They don't get another shot cause you're... love drunk
Like a TV show playing reruns
Every chance I get
I'mma turn you on


You could be my it girl
Baby you're the shhh girl

Lovin' you could be a crime
Crazy how we fit girl
This it girl
Give me 25 to life
I just wanna rock all night long
And put you in the middle of my spotlight
You could be my it girl
You're my biggest hit girl

Let me play it loud
Let me play it loud like... oh oh oh oh
Let me play it loud
Let me play it loud like... oh oh oh oh
Let me play it loud

[Bridge]
F                              C
Can't seem to stop you from... running, running
Am                     G
Through my, through my mind, mind
F            C
Just keep it coming, coming
Am                   G
Til I make you mine, mine
F               C
You've got that something, something
Am   
I wanna be with girl
G
You're my greatest hit girl
G                       F C G 
Just say this is it girl... 
Am      F C  
Hey baby...
G     
Don't you know you're my it girl

[Chorus]
You could be my it girl
Baby you're the shhh girl
Lovin' you could be a crime
Crazy how we fit girl
This it girl
Give me 25 to life
I just wanna rock all night long
And put you in the middle of my spotlight
You could be my it girl
You're my biggest hit girl

Let me play it loud
Let me play it loud like... oh oh oh oh
Let me play it loud
Let me play it loud like... oh oh oh oh
Let me play it loud